ISO-10303-21;
HEADER;
FILE_DESCRIPTION (( 'STEP AP203' ),
    '1' );
FILE_NAME ('500008_c_1.STEP',
    '2023-05-12T03:16:37',
    ( '' ),
    ( '' ),
    'SwSTEP 2.0',
    'SolidWorks 2014',
    '' );
FILE_SCHEMA (( 'CONFIG_CONTROL_DESIGN' ));
ENDSEC;

DATA;
#1 = PERSON_AND_ORGANIZATION ( #105, #91 ) ;
#2 = COORDINATED_UNIVERSAL_TIME_OFFSET ( 8, 0, .BEHIND. ) ;
#3 = ORIENTED_EDGE ( 'NONE', *, *, #141, .T. ) ;
#4 = CC_DESIGN_SECURITY_CLASSIFICATION ( #179, ( #114 ) ) ;
#5 = AXIS2_PLACEMENT_3D ( 'NONE', #203, #60, #100 ) ;
#6 = APPROVAL_PERSON_ORGANIZATION ( #54, #61, #95 ) ;
#7 = APPROVAL_STATUS ( 'not_yet_approved' ) ;
#8 = VERTEX_POINT ( 'NONE', #85 ) ;
#9 = APPROVAL ( #146, 'UNSPECIFIED' ) ;
#10 = DIRECTION ( 'NONE',  ( 1.000000000000000000, 0.0000000000000000000, 0.0000000000000000000 ) ) ;
#11 = PLANE ( 'NONE',  #98 ) ;
#12 = DIRECTION ( 'NONE',  ( -0.0000000000000000000, -1.000000000000000000, 0.0000000000000000000 ) ) ;
#13 = CALENDAR_DATE ( 2023, 11, 5 ) ;
#14 = ORIENTED_EDGE ( 'NONE', *, *, #155, .T. ) ;
#15 = CLOSED_SHELL ( 'NONE', ( #125, #44, #27, #202, #228, #101 ) ) ;
#16 = DIRECTION ( 'NONE',  ( 0.0000000000000000000, 0.0000000000000000000, 1.000000000000000000 ) ) ;
#17 = CC_DESIGN_DATE_AND_TIME_ASSIGNMENT ( #197, #167, ( #179 ) ) ;
#18 = PERSON_AND_ORGANIZATION ( #105, #91 ) ;
#19 = ORIENTED_EDGE ( 'NONE', *, *, #42, .T. ) ;
#20 = ORIENTED_EDGE ( 'NONE', *, *, #26, .T. ) ;
#21 = VERTEX_POINT ( 'NONE', #231 ) ;
#22 = CC_DESIGN_DATE_AND_TIME_ASSIGNMENT ( #122, #204, ( #145 ) ) ;
#23 = VECTOR ( 'NONE', #173, 1000.000000000000000 ) ;
#24 = APPLICATION_CONTEXT ( 'configuration controlled 3d designs of mechanical parts and assemblies' ) ;
#25 = APPROVAL_PERSON_ORGANIZATION ( #148, #224, #115 ) ;
#26 = EDGE_CURVE ( 'NONE', #223, #110, #65, .T. ) ;
#27 = ADVANCED_FACE ( 'NONE', ( #121 ), #118, .F. ) ;
#28 = COORDINATED_UNIVERSAL_TIME_OFFSET ( 8, 0, .BEHIND. ) ;
#29 = VERTEX_POINT ( 'NONE', #67 ) ;
#30 = DIRECTION ( 'NONE',  ( 0.0000000000000000000, 0.0000000000000000000, 1.000000000000000000 ) ) ;
#31 = AXIS2_PLACEMENT_3D ( 'NONE', #234, #134, #16 ) ;
#32 = VECTOR ( 'NONE', #70, 1000.000000000000000 ) ;
#33 = ORIENTED_EDGE ( 'NONE', *, *, #73, .T. ) ;
#34 = DIRECTION ( 'NONE',  ( -1.000000000000000000, 0.0000000000000000000, -0.0000000000000000000 ) ) ;
#35 = PLANE ( 'NONE',  #31 ) ;
#36 = CARTESIAN_POINT ( 'NONE',  ( -625.0000000000000000, -1250.000000000000000, 0.0000000000000000000 ) ) ;
#37 = CARTESIAN_POINT ( 'NONE',  ( 0.0000000000000000000, 1250.000000000000000, 8.000000000000000000 ) ) ;
#38 = VECTOR ( 'NONE', #138, 1000.000000000000000 ) ;
#39 = ORIENTED_EDGE ( 'NONE', *, *, #47, .F. ) ;
#40 = EDGE_CURVE ( 'NONE', #8, #119, #164, .T. ) ;
#41 = LINE ( 'NONE', #214, #38 ) ;
#42 = EDGE_CURVE ( 'NONE', #150, #119, #178, .T. ) ;
#43 = DATE_AND_TIME ( #89, #184 ) ;
#44 = ADVANCED_FACE ( 'NONE', ( #76 ), #35, .F. ) ;
#45 = ORIENTED_EDGE ( 'NONE', *, *, #47, .T. ) ;
#46 = APPLICATION_CONTEXT ( 'configuration controlled 3d designs of mechanical parts and assemblies' ) ;
#47 = EDGE_CURVE ( 'NONE', #110, #150, #41, .T. ) ;
#48 = DIRECTION ( 'NONE',  ( 0.0000000000000000000, 0.0000000000000000000, 1.000000000000000000 ) ) ;
#49 = VECTOR ( 'NONE', #180, 1000.000000000000000 ) ;
#50 = DIRECTION ( 'NONE',  ( 0.0000000000000000000, 0.0000000000000000000, -1.000000000000000000 ) ) ;
#51 = ORIENTED_EDGE ( 'NONE', *, *, #237, .T. ) ;
#52 = VECTOR ( 'NONE', #127, 1000.000000000000000 ) ;
#53 = AXIS2_PLACEMENT_3D ( 'NONE', #147, #48, #10 ) ;
#54 = PERSON_AND_ORGANIZATION ( #105, #91 ) ;
#55 = EDGE_CURVE ( 'NONE', #199, #8, #162, .T. ) ;
#56 = CC_DESIGN_APPROVAL ( #61, ( #114 ) ) ;
#57 = LOCAL_TIME ( 20, 16, 37.00000000000000000, #106 ) ;
#58 = APPROVAL_DATE_TIME ( #77, #9 ) ;
#59 = EDGE_CURVE ( 'NONE', #29, #223, #189, .T. ) ;
#60 = DIRECTION ( 'NONE',  ( 0.0000000000000000000, 1.000000000000000000, 0.0000000000000000000 ) ) ;
#61 = APPROVAL ( #96, 'UNSPECIFIED' ) ;
#62 = EDGE_LOOP ( 'NONE', ( #45, #19, #104, #33 ) ) ;
#63 = CC_DESIGN_PERSON_AND_ORGANIZATION_ASSIGNMENT ( #18, #129, ( #145 ) ) ;
#64 = PERSON_AND_ORGANIZATION ( #105, #91 ) ;
#65 = LINE ( 'NONE', #209, #23 ) ;
#66 = DIRECTION ( 'NONE',  ( 0.0000000000000000000, -0.0000000000000000000, -1.000000000000000000 ) ) ;
#67 = CARTESIAN_POINT ( 'NONE',  ( 625.0000000000000000, -1250.000000000000000, 8.000000000000000000 ) ) ;
#68 = EDGE_CURVE ( 'NONE', #8, #29, #136, .T. ) ;
#69 = EDGE_LOOP ( 'NONE', ( #112, #190, #160, #175 ) ) ;
#70 = DIRECTION ( 'NONE',  ( 1.000000000000000000, -0.0000000000000000000, 0.0000000000000000000 ) ) ;
#71 = CARTESIAN_POINT ( 'NONE',  ( 0.0000000000000000000, -1250.000000000000000, 8.000000000000000000 ) ) ;
#72 = VECTOR ( 'NONE', #12, 1000.000000000000000 ) ;
#73 = EDGE_CURVE ( 'NONE', #21, #110, #218, .T. ) ;
#74 = VECTOR ( 'NONE', #217, 1000.000000000000000 ) ;
#75 = PRODUCT_RELATED_PRODUCT_CATEGORY ( 'detail', '', ( #117 ) ) ;
#76 = FACE_OUTER_BOUND ( 'NONE', #201, .T. ) ;
#77 = DATE_AND_TIME ( #170, #159 ) ;
#78 = CARTESIAN_POINT ( 'NONE',  ( -625.0000000000000000, -1250.000000000000000, 8.000000000000000000 ) ) ;
#79 = ORIENTED_EDGE ( 'NONE', *, *, #237, .F. ) ;
#80 = AXIS2_PLACEMENT_3D ( 'NONE', #86, #103, #66 ) ;
#81 = PLANE ( 'NONE',  #196 ) ;
#82 = PERSON_AND_ORGANIZATION_ROLE ( 'creator' ) ;
#83 = COORDINATED_UNIVERSAL_TIME_OFFSET ( 8, 0, .BEHIND. ) ;
#84 = PRODUCT_DEFINITION_SHAPE ( 'NONE', 'NONE',  #145 ) ;
#85 = CARTESIAN_POINT ( 'NONE',  ( 625.0000000000000000, 1250.000000000000000, 8.000000000000000000 ) ) ;
#86 = CARTESIAN_POINT ( 'NONE',  ( -625.0000000000000000, 1250.000000000000000, 8.000000000000000000 ) ) ;
#87 = PERSON_AND_ORGANIZATION ( #105, #91 ) ;
#88 = COORDINATED_UNIVERSAL_TIME_OFFSET ( 8, 0, .BEHIND. ) ;
#89 = CALENDAR_DATE ( 2023, 11, 5 ) ;
#90 = ORIENTED_EDGE ( 'NONE', *, *, #68, .F. ) ;
#91 = ORGANIZATION ( 'UNSPECIFIED', 'UNSPECIFIED', '' ) ;
#92 = PERSON_AND_ORGANIZATION ( #105, #91 ) ;
#93 = LINE ( 'NONE', #226, #72 ) ;
#94 = DIRECTION ( 'NONE',  ( 0.0000000000000000000, 0.0000000000000000000, -1.000000000000000000 ) ) ;
#95 = APPROVAL_ROLE ( '' ) ;
#96 = APPROVAL_STATUS ( 'not_yet_approved' ) ;
#97 = VECTOR ( 'NONE', #30, 1000.000000000000000 ) ;
#98 = AXIS2_PLACEMENT_3D ( 'NONE', #165, #50, #187 ) ;
#99 = APPLICATION_PROTOCOL_DEFINITION ( 'international standard', 'config_control_design', 1994, #24 ) ;
#100 = DIRECTION ( 'NONE',  ( 0.0000000000000000000, -0.0000000000000000000, 1.000000000000000000 ) ) ;
#101 = ADVANCED_FACE ( 'NONE', ( #131 ), #11, .T. ) ;
#102 = FACE_OUTER_BOUND ( 'NONE', #195, .T. ) ;
#103 = DIRECTION ( 'NONE',  ( 0.0000000000000000000, -1.000000000000000000, 0.0000000000000000000 ) ) ;
#104 = ORIENTED_EDGE ( 'NONE', *, *, #177, .T. ) ;
#105 = PERSON ( 'UNSPECIFIED', 'UNSPECIFIED', 'UNSPECIFIED', ('UNSPECIFIED'), ('UNSPECIFIED'), ('UNSPECIFIED') ) ;
#106 = COORDINATED_UNIVERSAL_TIME_OFFSET ( 8, 0, .BEHIND. ) ;
#107 = EDGE_LOOP ( 'NONE', ( #140, #51, #14, #39 ) ) ;
#108 = CALENDAR_DATE ( 2023, 11, 5 ) ;
#109 = CC_DESIGN_PERSON_AND_ORGANIZATION_ASSIGNMENT ( #87, #82, ( #114 ) ) ;
#110 = VERTEX_POINT ( 'NONE', #36 ) ;
#111 = SECURITY_CLASSIFICATION_LEVEL ( 'unclassified' ) ;
#112 = ORIENTED_EDGE ( 'NONE', *, *, #155, .F. ) ;
#113 =( NAMED_UNIT ( * ) PLANE_ANGLE_UNIT ( ) SI_UNIT ( $, .RADIAN. ) );
#114 = PRODUCT_DEFINITION_FORMATION_WITH_SPECIFIED_SOURCE ( 'ANY', '', #117, .NOT_KNOWN. ) ;
#115 = APPROVAL_ROLE ( '' ) ;
#116 = CARTESIAN_POINT ( 'NONE',  ( -625.0000000000000000, 1250.000000000000000, 8.000000000000000000 ) ) ;
#117 = PRODUCT ( '500008_c_1', '500008_c_1', '', ( #126 ) ) ;
#118 = PLANE ( 'NONE',  #80 ) ;
#119 = VERTEX_POINT ( 'NONE', #133 ) ;
#120 = AXIS2_PLACEMENT_3D ( 'NONE', #172, #212, #34 ) ;
#121 = FACE_OUTER_BOUND ( 'NONE', #69, .T. ) ;
#122 = DATE_AND_TIME ( #108, #207 ) ;
#123 = EDGE_LOOP ( 'NONE', ( #156, #79, #157, #90 ) ) ;
#124 =( GEOMETRIC_REPRESENTATION_CONTEXT ( 3 ) GLOBAL_UNCERTAINTY_ASSIGNED_CONTEXT ( ( #233 ) ) GLOBAL_UNIT_ASSIGNED_CONTEXT ( ( #206, #113, #186 ) ) REPRESENTATION_CONTEXT ( 'NONE', 'WORKASPACE' ) );
#125 = ADVANCED_FACE ( 'NONE', ( #139 ), #154, .F. ) ;
#126 = MECHANICAL_CONTEXT ( 'NONE', #46, 'mechanical' ) ;
#127 = DIRECTION ( 'NONE',  ( 0.0000000000000000000, 1.000000000000000000, 0.0000000000000000000 ) ) ;
#128 = LINE ( 'NONE', #116, #194 ) ;
#129 = PERSON_AND_ORGANIZATION_ROLE ( 'creator' ) ;
#130 = CARTESIAN_POINT ( 'NONE',  ( -625.0000000000000000, 1250.000000000000000, 0.0000000000000000000 ) ) ;
#131 = FACE_OUTER_BOUND ( 'NONE', #62, .T. ) ;
#132 = CARTESIAN_POINT ( 'NONE',  ( 625.0000000000000000, 1250.000000000000000, 8.000000000000000000 ) ) ;
#133 = CARTESIAN_POINT ( 'NONE',  ( 625.0000000000000000, 1250.000000000000000, 0.0000000000000000000 ) ) ;
#134 = DIRECTION ( 'NONE',  ( -1.000000000000000000, 0.0000000000000000000, 0.0000000000000000000 ) ) ;
#135 = LOCAL_TIME ( 20, 16, 37.00000000000000000, #88 ) ;
#136 = LINE ( 'NONE', #198, #222 ) ;
#137 = CC_DESIGN_APPROVAL ( #9, ( #145 ) ) ;
#138 = DIRECTION ( 'NONE',  ( 0.0000000000000000000, 1.000000000000000000, 0.0000000000000000000 ) ) ;
#139 = FACE_OUTER_BOUND ( 'NONE', #123, .T. ) ;
#140 = ORIENTED_EDGE ( 'NONE', *, *, #26, .F. ) ;
#141 = EDGE_CURVE ( 'NONE', #21, #29, #143, .T. ) ;
#142 = ADVANCED_BREP_SHAPE_REPRESENTATION ( '500008_c_1', ( #200, #53 ), #124 ) ;
#143 = LINE ( 'NONE', #208, #97 ) ;
#144 = ORIENTED_EDGE ( 'NONE', *, *, #73, .F. ) ;
#145 = PRODUCT_DEFINITION ( 'UNKNOWN', '', #114, #153 ) ;
#146 = APPROVAL_STATUS ( 'not_yet_approved' ) ;
#147 = CARTESIAN_POINT ( 'NONE',  ( 0.0000000000000000000, 0.0000000000000000000, 0.0000000000000000000 ) ) ;
#148 = PERSON_AND_ORGANIZATION ( #105, #91 ) ;
#149 = APPLICATION_PROTOCOL_DEFINITION ( 'international standard', 'config_control_design', 1994, #46 ) ;
#150 = VERTEX_POINT ( 'NONE', #130 ) ;
#151 = PERSON_AND_ORGANIZATION_ROLE ( 'classification_officer' ) ;
#152 = CARTESIAN_POINT ( 'NONE',  ( -625.0000000000000000, -1250.000000000000000, 8.000000000000000000 ) ) ;
#153 = DESIGN_CONTEXT ( 'detailed design', #24, 'design' ) ;
#154 = PLANE ( 'NONE',  #120 ) ;
#155 = EDGE_CURVE ( 'NONE', #199, #150, #128, .T. ) ;
#156 = ORIENTED_EDGE ( 'NONE', *, *, #55, .F. ) ;
#157 = ORIENTED_EDGE ( 'NONE', *, *, #59, .F. ) ;
#158 = DIRECTION ( 'NONE',  ( -0.0000000000000000000, -1.000000000000000000, -0.0000000000000000000 ) ) ;
#159 = LOCAL_TIME ( 20, 16, 37.00000000000000000, #83 ) ;
#160 = ORIENTED_EDGE ( 'NONE', *, *, #40, .T. ) ;
#161 = CC_DESIGN_PERSON_AND_ORGANIZATION_ASSIGNMENT ( #64, #168, ( #117 ) ) ;
#162 = LINE ( 'NONE', #37, #32 ) ;
#163 = CARTESIAN_POINT ( 'NONE',  ( -625.0000000000000000, 0.0000000000000000000, 8.000000000000000000 ) ) ;
#164 = LINE ( 'NONE', #132, #74 ) ;
#165 = CARTESIAN_POINT ( 'NONE',  ( 0.0000000000000000000, 0.0000000000000000000, 0.0000000000000000000 ) ) ;
#166 = DIRECTION ( 'NONE',  ( 0.0000000000000000000, -0.0000000000000000000, -1.000000000000000000 ) ) ;
#167 = DATE_TIME_ROLE ( 'classification_date' ) ;
#168 = PERSON_AND_ORGANIZATION_ROLE ( 'design_owner' ) ;
#169 = PLANE ( 'NONE',  #5 ) ;
#170 = CALENDAR_DATE ( 2023, 11, 5 ) ;
#171 = ORIENTED_EDGE ( 'NONE', *, *, #68, .T. ) ;
#172 = CARTESIAN_POINT ( 'NONE',  ( 0.0000000000000000000, 0.0000000000000000000, 8.000000000000000000 ) ) ;
#173 = DIRECTION ( 'NONE',  ( 0.0000000000000000000, 0.0000000000000000000, -1.000000000000000000 ) ) ;
#174 = APPROVAL_PERSON_ORGANIZATION ( #229, #9, #225 ) ;
#175 = ORIENTED_EDGE ( 'NONE', *, *, #42, .F. ) ;
#176 = CARTESIAN_POINT ( 'NONE',  ( -625.0000000000000000, -1250.000000000000000, 0.0000000000000000000 ) ) ;
#177 = EDGE_CURVE ( 'NONE', #119, #21, #93, .T. ) ;
#178 = LINE ( 'NONE', #210, #49 ) ;
#179 = SECURITY_CLASSIFICATION ( '', '', #111 ) ;
#180 = DIRECTION ( 'NONE',  ( 1.000000000000000000, 0.0000000000000000000, 0.0000000000000000000 ) ) ;
#181 = VECTOR ( 'NONE', #183, 1000.000000000000000 ) ;
#182 = ORIENTED_EDGE ( 'NONE', *, *, #40, .F. ) ;
#183 = DIRECTION ( 'NONE',  ( -1.000000000000000000, 0.0000000000000000000, -0.0000000000000000000 ) ) ;
#184 = LOCAL_TIME ( 20, 16, 37.00000000000000000, #2 ) ;
#185 = SHAPE_DEFINITION_REPRESENTATION ( #84, #142 ) ;
#186 =( NAMED_UNIT ( * ) SI_UNIT ( $, .STERADIAN. ) SOLID_ANGLE_UNIT ( ) );
#187 = DIRECTION ( 'NONE',  ( -1.000000000000000000, 0.0000000000000000000, -0.0000000000000000000 ) ) ;
#188 = CARTESIAN_POINT ( 'NONE',  ( -625.0000000000000000, 1250.000000000000000, 8.000000000000000000 ) ) ;
#189 = LINE ( 'NONE', #71, #181 ) ;
#190 = ORIENTED_EDGE ( 'NONE', *, *, #55, .T. ) ;
#191 = LINE ( 'NONE', #163, #52 ) ;
#192 = DIRECTION ( 'NONE',  ( -1.000000000000000000, -0.0000000000000000000, 0.0000000000000000000 ) ) ;
#193 = DATE_AND_TIME ( #13, #135 ) ;
#194 = VECTOR ( 'NONE', #166, 1000.000000000000000 ) ;
#195 = EDGE_LOOP ( 'NONE', ( #3, #221, #20, #144 ) ) ;
#196 = AXIS2_PLACEMENT_3D ( 'NONE', #78, #205, #94 ) ;
#197 = DATE_AND_TIME ( #220, #57 ) ;
#198 = CARTESIAN_POINT ( 'NONE',  ( 625.0000000000000000, 0.0000000000000000000, 8.000000000000000000 ) ) ;
#199 = VERTEX_POINT ( 'NONE', #188 ) ;
#200 = MANIFOLD_SOLID_BREP ( 'NONE', #15 ) ;
#201 = EDGE_LOOP ( 'NONE', ( #182, #171, #213, #219 ) ) ;
#202 = ADVANCED_FACE ( 'NONE', ( #216 ), #81, .F. ) ;
#203 = CARTESIAN_POINT ( 'NONE',  ( -625.0000000000000000, -1250.000000000000000, 8.000000000000000000 ) ) ;
#204 = DATE_TIME_ROLE ( 'creation_date' ) ;
#205 = DIRECTION ( 'NONE',  ( 1.000000000000000000, -0.0000000000000000000, 0.0000000000000000000 ) ) ;
#206 =( LENGTH_UNIT ( ) NAMED_UNIT ( * ) SI_UNIT ( .MILLI., .METRE. ) );
#207 = LOCAL_TIME ( 20, 16, 37.00000000000000000, #28 ) ;
#208 = CARTESIAN_POINT ( 'NONE',  ( 625.0000000000000000, -1250.000000000000000, 8.000000000000000000 ) ) ;
#209 = CARTESIAN_POINT ( 'NONE',  ( -625.0000000000000000, -1250.000000000000000, 8.000000000000000000 ) ) ;
#210 = CARTESIAN_POINT ( 'NONE',  ( -625.0000000000000000, 1250.000000000000000, 0.0000000000000000000 ) ) ;
#211 = CC_DESIGN_PERSON_AND_ORGANIZATION_ASSIGNMENT ( #1, #151, ( #179 ) ) ;
#212 = DIRECTION ( 'NONE',  ( 0.0000000000000000000, 0.0000000000000000000, -1.000000000000000000 ) ) ;
#213 = ORIENTED_EDGE ( 'NONE', *, *, #141, .F. ) ;
#214 = CARTESIAN_POINT ( 'NONE',  ( -625.0000000000000000, -1250.000000000000000, 0.0000000000000000000 ) ) ;
#215 = CC_DESIGN_PERSON_AND_ORGANIZATION_ASSIGNMENT ( #92, #227, ( #114 ) ) ;
#216 = FACE_OUTER_BOUND ( 'NONE', #107, .T. ) ;
#217 = DIRECTION ( 'NONE',  ( -0.0000000000000000000, -0.0000000000000000000, -1.000000000000000000 ) ) ;
#218 = LINE ( 'NONE', #176, #236 ) ;
#219 = ORIENTED_EDGE ( 'NONE', *, *, #177, .F. ) ;
#220 = CALENDAR_DATE ( 2023, 11, 5 ) ;
#221 = ORIENTED_EDGE ( 'NONE', *, *, #59, .T. ) ;
#222 = VECTOR ( 'NONE', #158, 1000.000000000000000 ) ;
#223 = VERTEX_POINT ( 'NONE', #152 ) ;
#224 = APPROVAL ( #7, 'UNSPECIFIED' ) ;
#225 = APPROVAL_ROLE ( '' ) ;
#226 = CARTESIAN_POINT ( 'NONE',  ( 625.0000000000000000, -1250.000000000000000, 0.0000000000000000000 ) ) ;
#227 = PERSON_AND_ORGANIZATION_ROLE ( 'design_supplier' ) ;
#228 = ADVANCED_FACE ( 'NONE', ( #102 ), #169, .F. ) ;
#229 = PERSON_AND_ORGANIZATION ( #105, #91 ) ;
#230 = CC_DESIGN_APPROVAL ( #224, ( #179 ) ) ;
#231 = CARTESIAN_POINT ( 'NONE',  ( 625.0000000000000000, -1250.000000000000000, 0.0000000000000000000 ) ) ;
#232 = APPROVAL_DATE_TIME ( #43, #61 ) ;
#233 = UNCERTAINTY_MEASURE_WITH_UNIT (LENGTH_MEASURE( 1.000000000000000100E-005 ), #206, 'distance_accuracy_value', 'NONE');
#234 = CARTESIAN_POINT ( 'NONE',  ( 625.0000000000000000, -1250.000000000000000, 8.000000000000000000 ) ) ;
#235 = APPROVAL_DATE_TIME ( #193, #224 ) ;
#236 = VECTOR ( 'NONE', #192, 1000.000000000000000 ) ;
#237 = EDGE_CURVE ( 'NONE', #223, #199, #191, .T. ) ;
ENDSEC;
END-ISO-10303-21;
